ISO-10303-21;
HEADER;
/* Generated by software containing ST-Developer
 * from STEP Tools, Inc. (www.steptools.com) 
 */
/* OPTION: using custom schema-name function */

FILE_DESCRIPTION(
/* description */ (''),
/* implementation_level */ '2;1');

FILE_NAME(
/* name */ '1494 reva w1.stp',
/* time_stamp */ '2019-09-25T16:43:38+03:00',
/* author */ (''),
/* organization */ (''),
/* preprocessor_version */ 'ST-DEVELOPER v16',
/* originating_system */ 'SIEMENS PLM Software NX 11.0',
/* authorisation */ '');

FILE_SCHEMA (('AUTOMOTIVE_DESIGN { 1 0 10303 214 3 1 1 1 }'));
ENDSEC;

DATA;
#10=PROPERTY_DEFINITION_REPRESENTATION(#14,#12);
#11=PROPERTY_DEFINITION_REPRESENTATION(#15,#13);
#12=REPRESENTATION('',(#16),#317);
#13=REPRESENTATION('',(#17),#317);
#14=PROPERTY_DEFINITION('pmi validation property','',#21);
#15=PROPERTY_DEFINITION('pmi validation property','',#21);
#16=VALUE_REPRESENTATION_ITEM('number of annotations',COUNT_MEASURE(0.));
#17=VALUE_REPRESENTATION_ITEM('number of views',COUNT_MEASURE(0.));
#18=SHAPE_REPRESENTATION_RELATIONSHIP('None',
'relationship between Dell0C70E080dhv4-None and Dell0C70E080dhv4-None',
#30,#19);
#19=ADVANCED_BREP_SHAPE_REPRESENTATION('Dell0C70E080dhv4-None',(#40),#317);
#20=SHAPE_DEFINITION_REPRESENTATION(#21,#30);
#21=PRODUCT_DEFINITION_SHAPE('','',#22);
#22=PRODUCT_DEFINITION(' ','',#24,#23);
#23=PRODUCT_DEFINITION_CONTEXT('part definition',#29,'design');
#24=PRODUCT_DEFINITION_FORMATION_WITH_SPECIFIED_SOURCE(' ',' ',#26,
 .NOT_KNOWN.);
#25=PRODUCT_RELATED_PRODUCT_CATEGORY('part','',(#26));
#26=PRODUCT('Dell0C70E080dhv4','Dell0C70E080dhv4',' ',(#27));
#27=PRODUCT_CONTEXT(' ',#29,'mechanical');
#28=APPLICATION_PROTOCOL_DEFINITION('international standard',
'automotive_design',2010,#29);
#29=APPLICATION_CONTEXT(
'core data for automotive mechanical design processes');
#30=SHAPE_REPRESENTATION('Dell0C70E080dhv4-None',(#178),#317);
#31=PRESENTATION_LAYER_ASSIGNMENT('1','Layer 1',(#40));
#32=STYLED_ITEM('',(#33),#40);
#33=PRESENTATION_STYLE_ASSIGNMENT((#34));
#34=SURFACE_STYLE_USAGE(.BOTH.,#35);
#35=SURFACE_SIDE_STYLE('',(#36));
#36=SURFACE_STYLE_FILL_AREA(#37);
#37=FILL_AREA_STYLE('',(#38));
#38=FILL_AREA_STYLE_COLOUR('',#39);
#39=COLOUR_RGB('Medium Red',1.,0.4,0.4);
#40=MANIFOLD_SOLID_BREP('',#41);
#41=CLOSED_SHELL('',(#57,#58,#59,#60,#61,#62,#63,#64,#65,#66,#67,#68));
#42=TOROIDAL_SURFACE('',#194,186.136907941585,3.);
#43=TOROIDAL_SURFACE('',#195,186.565040380603,3.);
#44=TOROIDAL_SURFACE('',#196,27.5,5.);
#45=TOROIDAL_SURFACE('',#197,38.5500332587283,5.);
#46=TOROIDAL_SURFACE('',#199,47.8280506379077,6.);
#47=TOROIDAL_SURFACE('',#200,59.2458041646983,6.);
#48=PLANE('',#193);
#49=CONICAL_SURFACE('',#186,36.4588009037415,50.);
#50=CONICAL_SURFACE('',#191,183.5,83.5430496996615);
#51=SURFACE_OF_REVOLUTION('',#55,#53);
#52=SURFACE_OF_REVOLUTION('',#56,#54);
#53=AXIS1_PLACEMENT('',#273,#213);
#54=AXIS1_PLACEMENT('',#299,#224);
#55=B_SPLINE_CURVE_WITH_KNOTS('',3,(#259,#260,#261,#262,#263,#264,#265,
#266,#267,#268,#269,#270,#271,#272),.UNSPECIFIED.,.F.,.F.,(4,1,1,1,1,1,
1,1,1,1,1,4),(0.,0.125,0.28125,0.34375,0.4375,0.5,0.5625,0.65625,0.71875,
0.78125,0.875,1.),.UNSPECIFIED.);
#56=B_SPLINE_CURVE_WITH_KNOTS('',5,(#283,#284,#285,#286,#287,#288,#289,
#290,#291,#292,#293,#294,#295,#296,#297,#298),.UNSPECIFIED.,.F.,.F.,(6,
1,1,1,1,1,1,1,1,1,1,6),(0.,0.099069061068722,0.189280809161427,0.279492557254133,
0.369704305346838,0.459916053439544,0.550127801532249,0.640339549624954,
0.73055129771766,0.820763045810365,0.910974793903071,1.),.UNSPECIFIED.);
#57=ADVANCED_FACE('',(#70,#71),#69,.F.);
#58=ADVANCED_FACE('',(#72,#73),#51,.T.);
#59=ADVANCED_FACE('',(#74,#75),#49,.F.);
#60=ADVANCED_FACE('',(#76,#77),#52,.F.);
#61=ADVANCED_FACE('',(#78,#79),#50,.T.);
#62=ADVANCED_FACE('',(#80,#81),#48,.T.);
#63=ADVANCED_FACE('',(#82,#83),#42,.T.);
#64=ADVANCED_FACE('',(#84,#85),#43,.T.);
#65=ADVANCED_FACE('',(#86,#87),#44,.T.);
#66=ADVANCED_FACE('',(#88,#89),#45,.T.);
#67=ADVANCED_FACE('',(#90,#91),#46,.T.);
#68=ADVANCED_FACE('',(#92,#93),#47,.F.);
#69=CYLINDRICAL_SURFACE('',#181,22.5);
#70=FACE_BOUND('',#94,.T.);
#71=FACE_BOUND('',#95,.T.);
#72=FACE_BOUND('',#96,.T.);
#73=FACE_BOUND('',#97,.T.);
#74=FACE_BOUND('',#98,.T.);
#75=FACE_BOUND('',#99,.T.);
#76=FACE_BOUND('',#100,.T.);
#77=FACE_BOUND('',#101,.T.);
#78=FACE_BOUND('',#102,.T.);
#79=FACE_BOUND('',#103,.T.);
#80=FACE_BOUND('',#104,.T.);
#81=FACE_BOUND('',#105,.T.);
#82=FACE_BOUND('',#106,.T.);
#83=FACE_BOUND('',#107,.T.);
#84=FACE_BOUND('',#108,.T.);
#85=FACE_BOUND('',#109,.T.);
#86=FACE_BOUND('',#110,.T.);
#87=FACE_BOUND('',#111,.T.);
#88=FACE_BOUND('',#112,.T.);
#89=FACE_BOUND('',#113,.T.);
#90=FACE_BOUND('',#114,.T.);
#91=FACE_BOUND('',#115,.T.);
#92=FACE_BOUND('',#116,.T.);
#93=FACE_BOUND('',#117,.T.);
#94=EDGE_LOOP('',(#118));
#95=EDGE_LOOP('',(#119));
#96=EDGE_LOOP('',(#120));
#97=EDGE_LOOP('',(#121));
#98=EDGE_LOOP('',(#122));
#99=EDGE_LOOP('',(#123));
#100=EDGE_LOOP('',(#124));
#101=EDGE_LOOP('',(#125));
#102=EDGE_LOOP('',(#126));
#103=EDGE_LOOP('',(#127));
#104=EDGE_LOOP('',(#128));
#105=EDGE_LOOP('',(#129));
#106=EDGE_LOOP('',(#130));
#107=EDGE_LOOP('',(#131));
#108=EDGE_LOOP('',(#132));
#109=EDGE_LOOP('',(#133));
#110=EDGE_LOOP('',(#134));
#111=EDGE_LOOP('',(#135));
#112=EDGE_LOOP('',(#136));
#113=EDGE_LOOP('',(#137));
#114=EDGE_LOOP('',(#138));
#115=EDGE_LOOP('',(#139));
#116=EDGE_LOOP('',(#140));
#117=EDGE_LOOP('',(#141));
#118=ORIENTED_EDGE('',*,*,#154,.T.);
#119=ORIENTED_EDGE('',*,*,#155,.F.);
#120=ORIENTED_EDGE('',*,*,#156,.T.);
#121=ORIENTED_EDGE('',*,*,#157,.T.);
#122=ORIENTED_EDGE('',*,*,#158,.T.);
#123=ORIENTED_EDGE('',*,*,#159,.T.);
#124=ORIENTED_EDGE('',*,*,#160,.T.);
#125=ORIENTED_EDGE('',*,*,#161,.T.);
#126=ORIENTED_EDGE('',*,*,#162,.T.);
#127=ORIENTED_EDGE('',*,*,#163,.T.);
#128=ORIENTED_EDGE('',*,*,#164,.T.);
#129=ORIENTED_EDGE('',*,*,#155,.T.);
#130=ORIENTED_EDGE('',*,*,#157,.F.);
#131=ORIENTED_EDGE('',*,*,#162,.F.);
#132=ORIENTED_EDGE('',*,*,#163,.F.);
#133=ORIENTED_EDGE('',*,*,#161,.F.);
#134=ORIENTED_EDGE('',*,*,#158,.F.);
#135=ORIENTED_EDGE('',*,*,#154,.F.);
#136=ORIENTED_EDGE('',*,*,#159,.F.);
#137=ORIENTED_EDGE('',*,*,#156,.F.);
#138=ORIENTED_EDGE('',*,*,#165,.T.);
#139=ORIENTED_EDGE('',*,*,#164,.F.);
#140=ORIENTED_EDGE('',*,*,#165,.F.);
#141=ORIENTED_EDGE('',*,*,#160,.F.);
#142=VERTEX_POINT('',#251);
#143=VERTEX_POINT('',#253);
#144=VERTEX_POINT('',#256);
#145=VERTEX_POINT('',#258);
#146=VERTEX_POINT('',#275);
#147=VERTEX_POINT('',#277);
#148=VERTEX_POINT('',#280);
#149=VERTEX_POINT('',#282);
#150=VERTEX_POINT('',#301);
#151=VERTEX_POINT('',#303);
#152=VERTEX_POINT('',#306);
#153=VERTEX_POINT('',#313);
#154=EDGE_CURVE('',#142,#142,#166,.T.);
#155=EDGE_CURVE('',#143,#143,#167,.T.);
#156=EDGE_CURVE('',#144,#144,#168,.T.);
#157=EDGE_CURVE('',#145,#145,#169,.T.);
#158=EDGE_CURVE('',#146,#146,#170,.T.);
#159=EDGE_CURVE('',#147,#147,#171,.T.);
#160=EDGE_CURVE('',#148,#148,#172,.T.);
#161=EDGE_CURVE('',#149,#149,#173,.T.);
#162=EDGE_CURVE('',#150,#150,#174,.T.);
#163=EDGE_CURVE('',#151,#151,#175,.T.);
#164=EDGE_CURVE('',#152,#152,#176,.T.);
#165=EDGE_CURVE('',#153,#153,#177,.T.);
#166=CIRCLE('',#179,22.5);
#167=CIRCLE('',#180,22.5);
#168=CIRCLE('',#182,37.9064334822484);
#169=CIRCLE('',#183,183.157528730673);
#170=CIRCLE('',#184,24.2860619515673);
#171=CIRCLE('',#185,35.3360952102956);
#172=CIRCLE('',#187,57.8938294409835);
#173=CIRCLE('',#188,189.541562313241);
#174=CIRCLE('',#189,186.474277899767);
#175=CIRCLE('',#190,186.902410338785);
#176=CIRCLE('',#192,47.8280506379077);
#177=CIRCLE('',#198,53.5369274013029);
#178=AXIS2_PLACEMENT_3D('',#249,#201,#202);
#179=AXIS2_PLACEMENT_3D('',#250,#203,#204);
#180=AXIS2_PLACEMENT_3D('',#252,#205,#206);
#181=AXIS2_PLACEMENT_3D('',#254,#207,#208);
#182=AXIS2_PLACEMENT_3D('',#255,#209,#210);
#183=AXIS2_PLACEMENT_3D('',#257,#211,#212);
#184=AXIS2_PLACEMENT_3D('',#274,#214,#215);
#185=AXIS2_PLACEMENT_3D('',#276,#216,#217);
#186=AXIS2_PLACEMENT_3D('',#278,#218,#219);
#187=AXIS2_PLACEMENT_3D('',#279,#220,#221);
#188=AXIS2_PLACEMENT_3D('',#281,#222,#223);
#189=AXIS2_PLACEMENT_3D('',#300,#225,#226);
#190=AXIS2_PLACEMENT_3D('',#302,#227,#228);
#191=AXIS2_PLACEMENT_3D('',#304,#229,#230);
#192=AXIS2_PLACEMENT_3D('',#305,#231,#232);
#193=AXIS2_PLACEMENT_3D('',#307,#233,#234);
#194=AXIS2_PLACEMENT_3D('',#308,#235,#236);
#195=AXIS2_PLACEMENT_3D('',#309,#237,#238);
#196=AXIS2_PLACEMENT_3D('',#310,#239,#240);
#197=AXIS2_PLACEMENT_3D('',#311,#241,#242);
#198=AXIS2_PLACEMENT_3D('',#312,#243,#244);
#199=AXIS2_PLACEMENT_3D('',#314,#245,#246);
#200=AXIS2_PLACEMENT_3D('',#315,#247,#248);
#201=DIRECTION('',(0.,0.,1.));
#202=DIRECTION('',(1.,0.,0.));
#203=DIRECTION('',(0.,0.,1.));
#204=DIRECTION('',(-1.,0.,0.));
#205=DIRECTION('',(0.,0.,1.));
#206=DIRECTION('',(-1.,0.,0.));
#207=DIRECTION('',(0.,0.,1.));
#208=DIRECTION('',(1.,0.,0.));
#209=DIRECTION('',(0.,0.,-1.));
#210=DIRECTION('',(-1.,0.,0.));
#211=DIRECTION('',(0.,0.,1.));
#212=DIRECTION('',(-1.,0.,0.));
#213=DIRECTION('',(0.,0.,-1.));
#214=DIRECTION('',(0.,0.,-1.));
#215=DIRECTION('',(1.,0.,0.));
#216=DIRECTION('',(0.,0.,1.));
#217=DIRECTION('',(1.,0.,0.));
#218=DIRECTION('',(0.,0.,1.));
#219=DIRECTION('',(1.,0.,-2.25983516878388E-17));
#220=DIRECTION('',(0.,0.,1.));
#221=DIRECTION('',(-1.,0.,0.));
#222=DIRECTION('',(0.,0.,-1.));
#223=DIRECTION('',(-1.,0.,0.));
#224=DIRECTION('',(0.,0.,-1.));
#225=DIRECTION('',(0.,0.,-1.));
#226=DIRECTION('',(1.,0.,0.));
#227=DIRECTION('',(0.,0.,1.));
#228=DIRECTION('',(-1.,0.,0.));
#229=DIRECTION('',(0.,0.,-1.));
#230=DIRECTION('',(-1.,0.,-4.6159752026438E-18));
#231=DIRECTION('',(0.,0.,-1.));
#232=DIRECTION('',(-1.,0.,0.));
#233=DIRECTION('',(0.,0.,-1.));
#234=DIRECTION('',(-1.,0.,0.));
#235=DIRECTION('',(0.,0.,1.));
#236=DIRECTION('',(1.,0.,0.));
#237=DIRECTION('',(0.,0.,1.));
#238=DIRECTION('',(1.,0.,0.));
#239=DIRECTION('',(0.,0.,-1.));
#240=DIRECTION('',(-1.,0.,0.));
#241=DIRECTION('',(0.,0.,1.));
#242=DIRECTION('',(1.,0.,0.));
#243=DIRECTION('',(0.,0.,-1.));
#244=DIRECTION('',(1.,0.,0.));
#245=DIRECTION('',(0.,0.,-1.));
#246=DIRECTION('',(-1.,0.,0.));
#247=DIRECTION('',(0.,0.,1.));
#248=DIRECTION('',(1.,0.,0.));
#249=CARTESIAN_POINT('',(0.,0.,0.));
#250=CARTESIAN_POINT('',(-2.75545529808154E-15,0.,-128.50825159217));
#251=CARTESIAN_POINT('',(-22.5,0.,-128.50825159217));
#252=CARTESIAN_POINT('',(-2.75545529808154E-15,0.,-136.463888611389));
#253=CARTESIAN_POINT('',(-22.5,0.,-136.463888611389));
#254=CARTESIAN_POINT('',(-2.75545529808154E-15,0.,-148.463888611389));
#255=CARTESIAN_POINT('',(-2.75545529808154E-15,0.,-114.27776784259));
#256=CARTESIAN_POINT('',(-37.9064334822484,0.,-114.27776784259));
#257=CARTESIAN_POINT('',(-2.75545529808154E-15,0.,-2.96644217863851));
#258=CARTESIAN_POINT('',(-183.157528730673,0.,-2.96644217863851));
#259=CARTESIAN_POINT('',(-9.18485099360528E-16,-36.4588009037415,-114.463888611389));
#260=CARTESIAN_POINT('',(-8.47156349413683E-16,-45.6064225777742,-113.299001723242));
#261=CARTESIAN_POINT('',(-6.60802340482229E-16,-65.7638434999524,-110.255609798955));
#262=CARTESIAN_POINT('',(-3.59937802411256E-16,-88.5143452101211,-105.34211901483));
#263=CARTESIAN_POINT('',(-4.60019172676564E-17,-106.06341237602,-100.215156932992));
#264=CARTESIAN_POINT('',(2.91304641815543E-16,-121.37870146626,-94.706495867577));
#265=CARTESIAN_POINT('',(6.81545579474233E-16,-134.604196717798,-88.3333564698059));
#266=CARTESIAN_POINT('',(1.16075187404124E-15,-146.428871921987,-80.5069777240847));
#267=CARTESIAN_POINT('',(1.78107513317295E-15,-158.195260908707,-70.3763167718693));
#268=CARTESIAN_POINT('',(2.60797021920446E-15,-168.3793517298,-56.8731070573724));
#269=CARTESIAN_POINT('',(3.47169848049672E-15,-175.241095893334,-42.7666201277271));
#270=CARTESIAN_POINT('',(3.65468454377347E-15,-179.434771640266,-28.9318907244941));
#271=CARTESIAN_POINT('',(5.20692233717778E-15,-181.867072889753,-14.4283936294385));
#272=CARTESIAN_POINT('',(6.09040664093429E-15,-183.5,4.2632564145606E-14));
#273=CARTESIAN_POINT('',(-2.75545529808154E-15,0.,-114.463888611389));
#274=CARTESIAN_POINT('',(-2.75545529808154E-15,0.,-124.678029376575));
#275=CARTESIAN_POINT('',(24.2860619515673,0.,-124.678029376575));
#276=CARTESIAN_POINT('',(-2.75545529808154E-15,0.,-115.40595054468));
#277=CARTESIAN_POINT('',(35.3360952102956,0.,-115.40595054468));
#278=CARTESIAN_POINT('',(-2.75545529808154E-15,0.,-114.463888611389));
#279=CARTESIAN_POINT('',(-2.75545529808154E-15,0.,-128.310739529874));
#280=CARTESIAN_POINT('',(-57.8938294409835,0.,-128.310739529874));
#281=CARTESIAN_POINT('',(-2.75545529808154E-15,0.,-3.74062554425441));
#282=CARTESIAN_POINT('',(-189.541562313241,0.,-3.74062554425441));
#283=CARTESIAN_POINT('',(-3.55324106435658E-15,-34.1215017732381,-132.780327735168));
#284=CARTESIAN_POINT('',(-8.88066602337179E-16,-41.042682634991,-131.954896165823));
#285=CARTESIAN_POINT('',(-7.87569002417802E-16,-54.7973967117972,-129.23374719585));
#286=CARTESIAN_POINT('',(-5.68854430859877E-16,-74.0206946264687,-124.646181948735));
#287=CARTESIAN_POINT('',(-3.19615051159725E-16,-98.3285323669293,-117.586275297588));
#288=CARTESIAN_POINT('',(1.67818513105274E-16,-120.492582848078,-108.883993551554));
#289=CARTESIAN_POINT('',(6.00737232308219E-16,-138.467042747498,-100.090762491371));
#290=CARTESIAN_POINT('',(1.13422780630727E-15,-152.724161756082,-89.9707336115356));
#291=CARTESIAN_POINT('',(1.59815166265234E-15,-161.712459092098,-81.2345852294607));
#292=CARTESIAN_POINT('',(2.08268209217233E-15,-169.109454096129,-72.3916242697281));
#293=CARTESIAN_POINT('',(2.63428078184595E-15,-175.287804854798,-61.3490299770684));
#294=CARTESIAN_POINT('',(3.28906730931415E-15,-179.659324433881,-51.2245440775464));
#295=CARTESIAN_POINT('',(3.51082382259697E-15,-183.116465400561,-40.4471649632812));
#296=CARTESIAN_POINT('',(3.8552881837459E-15,-186.260885548963,-27.0089969323817));
#297=CARTESIAN_POINT('',(5.32069301630565E-15,-188.609596983491,-11.5329497927893));
#298=CARTESIAN_POINT('',(3.42060301650592E-16,-189.912902096356,-0.725777377399757));
#299=CARTESIAN_POINT('',(-2.75545529808154E-15,0.,-0.725777377401968));
#300=CARTESIAN_POINT('',(-2.75545529808154E-15,0.,-0.33661259462921));
#301=CARTESIAN_POINT('',(186.474277899767,0.,-0.33661259462921));
#302=CARTESIAN_POINT('',(-2.75545529808154E-15,0.,-0.385066295325531));
#303=CARTESIAN_POINT('',(-186.902410338785,0.,-0.385066295325531));
#304=CARTESIAN_POINT('',(-2.75545529808154E-15,0.,4.16333634234434E-14));
#305=CARTESIAN_POINT('',(-2.75545529808154E-15,0.,-136.463888611389));
#306=CARTESIAN_POINT('',(-47.8280506379077,0.,-136.463888611389));
#307=CARTESIAN_POINT('',(-2.75545529808154E-15,0.,-136.463888611389));
#308=CARTESIAN_POINT('',(-2.75545529808154E-15,0.,-3.31758248902875));
#309=CARTESIAN_POINT('',(-2.75545529808154E-15,0.,-3.36603618972494));
#310=CARTESIAN_POINT('',(-2.75545529808154E-15,0.,-128.50825159217));
#311=CARTESIAN_POINT('',(-2.75545529808154E-15,0.,-119.236172760275));
#312=CARTESIAN_POINT('',(-2.75545529808154E-15,0.,-132.310162182766));
#313=CARTESIAN_POINT('',(53.5369274013029,0.,-132.310162182766));
#314=CARTESIAN_POINT('',(-2.75545529808154E-15,0.,-130.463888611389));
#315=CARTESIAN_POINT('',(-2.75545529808154E-15,0.,-134.156435754143));
#316=MECHANICAL_DESIGN_GEOMETRIC_PRESENTATION_REPRESENTATION('',(#32),#317);
#317=(
GEOMETRIC_REPRESENTATION_CONTEXT(3)
GLOBAL_UNCERTAINTY_ASSIGNED_CONTEXT((#318))
GLOBAL_UNIT_ASSIGNED_CONTEXT((#324,#320,#319))
REPRESENTATION_CONTEXT('1494 reva w1','TOP_LEVEL_ASSEMBLY_PART')
);
#318=UNCERTAINTY_MEASURE_WITH_UNIT(LENGTH_MEASURE(2.E-5),#324,
'DISTANCE_ACCURACY_VALUE','Maximum Tolerance applied to model');
#319=(
NAMED_UNIT(*)
SI_UNIT($,.STERADIAN.)
SOLID_ANGLE_UNIT()
);
#320=(
CONVERSION_BASED_UNIT('DEGREE',#322)
NAMED_UNIT(#321)
PLANE_ANGLE_UNIT()
);
#321=DIMENSIONAL_EXPONENTS(0.,0.,0.,0.,0.,0.,0.);
#322=PLANE_ANGLE_MEASURE_WITH_UNIT(PLANE_ANGLE_MEASURE(0.0174532925),#323);
#323=(
NAMED_UNIT(*)
PLANE_ANGLE_UNIT()
SI_UNIT($,.RADIAN.)
);
#324=(
LENGTH_UNIT()
NAMED_UNIT(*)
SI_UNIT(.MILLI.,.METRE.)
);
ENDSEC;
END-ISO-10303-21;
